ISO-10303-21;
HEADER;
FILE_DESCRIPTION (( 'STEP AP203' ),
    '1' );
FILE_NAME ('Q-SHPQWP-18-1030-M.STEP',
    '2020-12-22T09:47:10',
    ( '' ),
    ( '' ),
    'SwSTEP 2.0',
    'SolidWorks 2020',
    '' );
FILE_SCHEMA (( 'CONFIG_CONTROL_DESIGN' ));
ENDSEC;

DATA;
#1 = ORIENTED_EDGE ( 'NONE', *, *, #26, .F. ) ;
#2 = VERTEX_POINT ( 'NONE', #220 ) ;
#3 = DIRECTION ( 'NONE',  ( 0.000000000000000000, 0.000000000000000000, 1.000000000000000000 ) ) ;
#4 = CARTESIAN_POINT ( 'NONE',  ( -1.614212418857619014, 0.000000000000000000, 0.000000000000000000 ) ) ;
#5 = EDGE_CURVE ( 'NONE', #235, #266, #288, .T. ) ;
#6 = PERSON_AND_ORGANIZATION_ROLE ( 'design_supplier' ) ;
#7 = ADVANCED_FACE ( 'NONE', ( #145 ), #240, .F. ) ;
#8 = CARTESIAN_POINT ( 'NONE',  ( -1.614212418857619014, 0.000000000000000000, 9.000000000000000000 ) ) ;
#9 = AXIS2_PLACEMENT_3D ( 'NONE', #204, #127, #3 ) ;
#10 = ORIENTED_EDGE ( 'NONE', *, *, #318, .T. ) ;
#11 = CC_DESIGN_DATE_AND_TIME_ASSIGNMENT ( #189, #162, ( #291 ) ) ;
#12 = PERSON ( 'UNSPECIFIED', 'UNSPECIFIED', 'UNSPECIFIED', ('UNSPECIFIED'), ('UNSPECIFIED'), ('UNSPECIFIED') ) ;
#13 = ORIENTED_EDGE ( 'NONE', *, *, #251, .F. ) ;
#14 = COORDINATED_UNIVERSAL_TIME_OFFSET ( 8, 0, .AHEAD. ) ;
#15 = CARTESIAN_POINT ( 'NONE',  ( 2.999999999999999112, 0.000000000000000000, 9.000000000000000000 ) ) ;
#16 = AXIS2_PLACEMENT_3D ( 'NONE', #4, #214, #244 ) ;
#17 = CYLINDRICAL_SURFACE ( 'NONE', #193, 12.69999999999999929 ) ;
#18 = DIRECTION ( 'NONE',  ( -1.000000000000000000, -0.000000000000000000, -0.000000000000000000 ) ) ;
#19 = AXIS2_PLACEMENT_3D ( 'NONE', #130, #52, #335 ) ;
#20 = APPROVAL_DATE_TIME ( #90, #233 ) ;
#21 = DIRECTION ( 'NONE',  ( -1.000000000000000000, -0.000000000000000000, -0.000000000000000000 ) ) ;
#22 = EDGE_LOOP ( 'NONE', ( #112, #73 ) ) ;
#23 = ORIENTED_EDGE ( 'NONE', *, *, #70, .F. ) ;
#24 = PLANE ( 'NONE',  #42 ) ;
#25 = ORIENTED_EDGE ( 'NONE', *, *, #325, .F. ) ;
#26 = EDGE_CURVE ( 'NONE', #165, #57, #292, .T. ) ;
#27 = CARTESIAN_POINT ( 'NONE',  ( -3.000000000000000000, 1.102182119232617714E-15, -9.000000000000000000 ) ) ;
#28 = DIRECTION ( 'NONE',  ( -1.000000000000000000, 0.000000000000000000, -0.000000000000000000 ) ) ;
#29 =( LENGTH_UNIT ( ) NAMED_UNIT ( * ) SI_UNIT ( .MILLI., .METRE. ) );
#30 = CIRCLE ( 'NONE', #155, 9.000000000000000000 ) ;
#31 = CIRCLE ( 'NONE', #295, 9.000000000000000000 ) ;
#32 = DIRECTION ( 'NONE',  ( 0.000000000000000000, 0.000000000000000000, 1.000000000000000000 ) ) ;
#33 = CALENDAR_DATE ( 2020, 22, 12 ) ;
#34 = FACE_OUTER_BOUND ( 'NONE', #22, .T. ) ;
#35 = LOCAL_TIME ( 17, 47, 10.00000000000000000, #62 ) ;
#36 = CALENDAR_DATE ( 2020, 22, 12 ) ;
#37 = APPROVAL_ROLE ( '' ) ;
#38 = DIRECTION ( 'NONE',  ( 0.000000000000000000, 0.000000000000000000, -1.000000000000000000 ) ) ;
#39 = ADVANCED_FACE ( 'NONE', ( #79 ), #64, .T. ) ;
#40 = CIRCLE ( 'NONE', #118, 12.69999999999999929 ) ;
#41 = CARTESIAN_POINT ( 'NONE',  ( -3.000000000000000000, 9.000000000000000000, 0.000000000000000000 ) ) ;
#42 = AXIS2_PLACEMENT_3D ( 'NONE', #184, #28, #281 ) ;
#43 = EDGE_CURVE ( 'NONE', #266, #57, #31, .T. ) ;
#44 = EDGE_CURVE ( 'NONE', #98, #176, #84, .T. ) ;
#45 = DIRECTION ( 'NONE',  ( -1.000000000000000000, -0.000000000000000000, -0.000000000000000000 ) ) ;
#46 = CARTESIAN_POINT ( 'NONE',  ( -0.01450000000000062350, 0.000000000000000000, 0.000000000000000000 ) ) ;
#47 = AXIS2_PLACEMENT_3D ( 'NONE', #313, #307, #181 ) ;
#48 = ORIENTED_EDGE ( 'NONE', *, *, #296, .F. ) ;
#49 = DIRECTION ( 'NONE',  ( 0.000000000000000000, 0.000000000000000000, -1.000000000000000000 ) ) ;
#50 = ADVANCED_FACE ( 'NONE', ( #192 ), #69, .F. ) ;
#51 = ORIENTED_EDGE ( 'NONE', *, *, #230, .T. ) ;
#52 = DIRECTION ( 'NONE',  ( 1.000000000000000000, 0.000000000000000000, 0.000000000000000000 ) ) ;
#53 = ORIENTED_EDGE ( 'NONE', *, *, #70, .T. ) ;
#54 = CIRCLE ( 'NONE', #164, 9.000000000000000000 ) ;
#55 = DIRECTION ( 'NONE',  ( 0.000000000000000000, 0.000000000000000000, 1.000000000000000000 ) ) ;
#56 = ORIENTED_EDGE ( 'NONE', *, *, #153, .F. ) ;
#57 = VERTEX_POINT ( 'NONE', #63 ) ;
#58 = VECTOR ( 'NONE', #271, 1000.000000000000000 ) ;
#59 = ADVANCED_FACE ( 'NONE', ( #86, #34 ), #166, .F. ) ;
#60 = APPLICATION_CONTEXT ( 'configuration controlled 3d designs of mechanical parts and assemblies' ) ;
#61 = CARTESIAN_POINT ( 'NONE',  ( -3.000000000000000000, 0.000000000000000000, 0.000000000000000000 ) ) ;
#62 = COORDINATED_UNIVERSAL_TIME_OFFSET ( 8, 0, .AHEAD. ) ;
#63 = CARTESIAN_POINT ( 'NONE',  ( -3.000000000000000000, 0.000000000000000000, 9.000000000000000000 ) ) ;
#64 = CYLINDRICAL_SURFACE ( 'NONE', #16, 12.69999999999999929 ) ;
#65 = DATE_AND_TIME ( #191, #228 ) ;
#66 = CIRCLE ( 'NONE', #254, 9.000000000000000000 ) ;
#67 = PERSON_AND_ORGANIZATION ( #12, #274 ) ;
#68 = PERSON_AND_ORGANIZATION ( #12, #274 ) ;
#69 = CYLINDRICAL_SURFACE ( 'NONE', #331, 9.000000000000000000 ) ;
#70 = EDGE_CURVE ( 'NONE', #308, #182, #167, .T. ) ;
#71 = CARTESIAN_POINT ( 'NONE',  ( -0.01450000000000051595, 9.000000000000000000, 0.000000000000000000 ) ) ;
#72 = DIRECTION ( 'NONE',  ( 1.000000000000000000, 0.000000000000000000, 0.000000000000000000 ) ) ;
#73 = ORIENTED_EDGE ( 'NONE', *, *, #160, .T. ) ;
#74 = ORIENTED_EDGE ( 'NONE', *, *, #160, .F. ) ;
#75 = LOCAL_TIME ( 17, 47, 10.00000000000000000, #293 ) ;
#76 = CYLINDRICAL_SURFACE ( 'NONE', #47, 9.000000000000000000 ) ;
#77 = PRODUCT_RELATED_PRODUCT_CATEGORY ( 'detail', '', ( #177 ) ) ;
#78 =( NAMED_UNIT ( * ) PLANE_ANGLE_UNIT ( ) SI_UNIT ( $, .RADIAN. ) );
#79 = FACE_OUTER_BOUND ( 'NONE', #250, .T. ) ;
#80 = PERSON_AND_ORGANIZATION_ROLE ( 'classification_officer' ) ;
#81 = CARTESIAN_POINT ( 'NONE',  ( 3.000000000000000000, 0.000000000000000000, 12.69999999999999929 ) ) ;
#82 = COORDINATED_UNIVERSAL_TIME_OFFSET ( 8, 0, .AHEAD. ) ;
#83 = DIRECTION ( 'NONE',  ( -1.000000000000000000, 0.000000000000000000, -0.000000000000000000 ) ) ;
#84 = LINE ( 'NONE', #212, #273 ) ;
#85 = APPROVAL_STATUS ( 'not_yet_approved' ) ;
#86 = FACE_BOUND ( 'NONE', #106, .T. ) ;
#87 = AXIS2_PLACEMENT_3D ( 'NONE', #180, #283, #55 ) ;
#88 = CIRCLE ( 'NONE', #227, 12.69999999999999929 ) ;
#89 = AXIS2_PLACEMENT_3D ( 'NONE', #286, #103, #284 ) ;
#90 = DATE_AND_TIME ( #200, #247 ) ;
#91 = DIRECTION ( 'NONE',  ( -1.000000000000000000, -0.000000000000000000, -0.000000000000000000 ) ) ;
#92 = APPROVAL_STATUS ( 'not_yet_approved' ) ;
#93 = DIRECTION ( 'NONE',  ( 0.000000000000000000, 0.000000000000000000, 1.000000000000000000 ) ) ;
#94 = DATE_TIME_ROLE ( 'classification_date' ) ;
#95 = CARTESIAN_POINT ( 'NONE',  ( 0.01450000000000105718, 0.000000000000000000, 9.000000000000000000 ) ) ;
#96 = VERTEX_POINT ( 'NONE', #81 ) ;
#97 = DIRECTION ( 'NONE',  ( -1.000000000000000000, -0.000000000000000000, -0.000000000000000000 ) ) ;
#98 = VERTEX_POINT ( 'NONE', #15 ) ;
#99 = FACE_OUTER_BOUND ( 'NONE', #203, .T. ) ;
#100 = EDGE_LOOP ( 'NONE', ( #102, #154 ) ) ;
#101 = CARTESIAN_POINT ( 'NONE',  ( 3.000000000000000000, 1.555301434917138433E-15, -12.69999999999999929 ) ) ;
#102 = ORIENTED_EDGE ( 'NONE', *, *, #258, .F. ) ;
#103 = DIRECTION ( 'NONE',  ( -1.000000000000000000, -0.000000000000000000, -0.000000000000000000 ) ) ;
#104 = VERTEX_POINT ( 'NONE', #113 ) ;
#105 = AXIS2_PLACEMENT_3D ( 'NONE', #41, #322, #38 ) ;
#106 = EDGE_LOOP ( 'NONE', ( #13, #205 ) ) ;
#107 = APPROVAL_ROLE ( '' ) ;
#108 = CC_DESIGN_SECURITY_CLASSIFICATION ( #323, ( #238 ) ) ;
#109 = DIRECTION ( 'NONE',  ( -1.000000000000000000, -0.000000000000000000, -0.000000000000000000 ) ) ;
#110 = PERSON_AND_ORGANIZATION_ROLE ( 'creator' ) ;
#111 = CARTESIAN_POINT ( 'NONE',  ( 3.000000000000000000, 0.000000000000000000, 0.000000000000000000 ) ) ;
#112 = ORIENTED_EDGE ( 'NONE', *, *, #178, .T. ) ;
#113 = CARTESIAN_POINT ( 'NONE',  ( 0.01450000000000105718, 1.102182119232617714E-15, -9.000000000000000000 ) ) ;
#114 = CARTESIAN_POINT ( 'NONE',  ( -3.000000000000000000, 0.000000000000000000, 12.69999999999999929 ) ) ;
#115 = DATE_AND_TIME ( #36, #75 ) ;
#116 = DIRECTION ( 'NONE',  ( 0.000000000000000000, 0.000000000000000000, 1.000000000000000000 ) ) ;
#117 = CARTESIAN_POINT ( 'NONE',  ( -1.614212418857619014, 0.000000000000000000, 0.000000000000000000 ) ) ;
#118 = AXIS2_PLACEMENT_3D ( 'NONE', #111, #290, #321 ) ;
#119 = CARTESIAN_POINT ( 'NONE',  ( -1.614212418857619014, 0.000000000000000000, 0.000000000000000000 ) ) ;
#120 = APPROVAL ( #218, 'UNSPECIFIED' ) ;
#121 = PERSON_AND_ORGANIZATION ( #12, #274 ) ;
#122 = ADVANCED_FACE ( 'NONE', ( #316 ), #187, .F. ) ;
#123 = ORIENTED_EDGE ( 'NONE', *, *, #251, .T. ) ;
#124 = CC_DESIGN_APPROVAL ( #272, ( #291 ) ) ;
#125 = PRODUCT_DEFINITION_SHAPE ( 'NONE', 'NONE',  #291 ) ;
#126 = EDGE_LOOP ( 'NONE', ( #161, #25, #129, #131 ) ) ;
#127 = DIRECTION ( 'NONE',  ( -1.000000000000000000, -0.000000000000000000, -0.000000000000000000 ) ) ;
#128 = CC_DESIGN_PERSON_AND_ORGANIZATION_ASSIGNMENT ( #68, #6, ( #238 ) ) ;
#129 = ORIENTED_EDGE ( 'NONE', *, *, #44, .T. ) ;
#130 = CARTESIAN_POINT ( 'NONE',  ( -0.01450000000000062350, 0.000000000000000000, 0.000000000000000000 ) ) ;
#131 = ORIENTED_EDGE ( 'NONE', *, *, #258, .T. ) ;
#132 = FACE_OUTER_BOUND ( 'NONE', #304, .T. ) ;
#133 = EDGE_CURVE ( 'NONE', #96, #159, #190, .T. ) ;
#134 = DIRECTION ( 'NONE',  ( -1.000000000000000000, -0.000000000000000000, -0.000000000000000000 ) ) ;
#135 = APPROVAL_DATE_TIME ( #299, #272 ) ;
#136 = PERSON_AND_ORGANIZATION_ROLE ( 'design_owner' ) ;
#137 = DIRECTION ( 'NONE',  ( -0.000000000000000000, 0.000000000000000000, 1.000000000000000000 ) ) ;
#138 = DIRECTION ( 'NONE',  ( 0.000000000000000000, 0.000000000000000000, 1.000000000000000000 ) ) ;
#139 = PERSON_AND_ORGANIZATION ( #12, #274 ) ;
#140 = CARTESIAN_POINT ( 'NONE',  ( -1.614212418857619014, 1.555301434917138433E-15, -12.69999999999999929 ) ) ;
#141 = DIRECTION ( 'NONE',  ( 0.000000000000000000, 0.000000000000000000, 1.000000000000000000 ) ) ;
#142 = AXIS2_PLACEMENT_3D ( 'NONE', #314, #18, #138 ) ;
#143 = APPROVAL_PERSON_ORGANIZATION ( #270, #272, #107 ) ;
#144 = APPROVAL_PERSON_ORGANIZATION ( #139, #120, #37 ) ;
#145 = FACE_OUTER_BOUND ( 'NONE', #126, .T. ) ;
#146 = ORIENTED_EDGE ( 'NONE', *, *, #169, .T. ) ;
#147 = LINE ( 'NONE', #276, #224 ) ;
#148 = FACE_OUTER_BOUND ( 'NONE', #259, .T. ) ;
#149 = AXIS2_PLACEMENT_3D ( 'NONE', #252, #280, #116 ) ;
#150 = CIRCLE ( 'NONE', #231, 12.69999999999999929 ) ;
#151 = CARTESIAN_POINT ( 'NONE',  ( -3.000000000000000000, 0.000000000000000000, 0.000000000000000000 ) ) ;
#152 = VECTOR ( 'NONE', #216, 1000.000000000000000 ) ;
#153 = EDGE_CURVE ( 'NONE', #96, #308, #40, .T. ) ;
#154 = ORIENTED_EDGE ( 'NONE', *, *, #318, .F. ) ;
#155 = AXIS2_PLACEMENT_3D ( 'NONE', #46, #72, #172 ) ;
#156 = ORIENTED_EDGE ( 'NONE', *, *, #230, .F. ) ;
#157 = CC_DESIGN_DATE_AND_TIME_ASSIGNMENT ( #115, #94, ( #323 ) ) ;
#158 = ORIENTED_EDGE ( 'NONE', *, *, #43, .T. ) ;
#159 = VERTEX_POINT ( 'NONE', #114 ) ;
#160 = EDGE_CURVE ( 'NONE', #182, #159, #88, .T. ) ;
#161 = ORIENTED_EDGE ( 'NONE', *, *, #213, .F. ) ;
#162 = DATE_TIME_ROLE ( 'creation_date' ) ;
#163 = DIRECTION ( 'NONE',  ( -1.000000000000000000, -0.000000000000000000, -0.000000000000000000 ) ) ;
#164 = AXIS2_PLACEMENT_3D ( 'NONE', #151, #97, #234 ) ;
#165 = VERTEX_POINT ( 'NONE', #306 ) ;
#166 = PLANE ( 'NONE',  #105 ) ;
#167 = LINE ( 'NONE', #140, #58 ) ;
#168 = AXIS2_PLACEMENT_3D ( 'NONE', #71, #226, #49 ) ;
#169 = EDGE_CURVE ( 'NONE', #2, #98, #66, .T. ) ;
#170 = CARTESIAN_POINT ( 'NONE',  ( -1.614212418857619014, 0.000000000000000000, 0.000000000000000000 ) ) ;
#171 = FACE_OUTER_BOUND ( 'NONE', #279, .T. ) ;
#172 = DIRECTION ( 'NONE',  ( 0.000000000000000000, 0.000000000000000000, -1.000000000000000000 ) ) ;
#173 = APPROVAL_PERSON_ORGANIZATION ( #121, #233, #326 ) ;
#174 = ORIENTED_EDGE ( 'NONE', *, *, #325, .T. ) ;
#175 = MANIFOLD_SOLID_BREP ( 'Ðý×', #253 ) ;
#176 = VERTEX_POINT ( 'NONE', #95 ) ;
#177 = PRODUCT ( 'Q-SHPQWP-18-1030-M', 'Q-SHPQWP-18-1030-M', '', ( #223 ) ) ;
#178 = EDGE_CURVE ( 'NONE', #159, #182, #297, .T. ) ;
#179 = DESIGN_CONTEXT ( 'detailed design', #333, 'design' ) ;
#180 = CARTESIAN_POINT ( 'NONE',  ( 2.999999999999999112, 0.000000000000000000, 0.000000000000000000 ) ) ;
#181 = DIRECTION ( 'NONE',  ( 0.000000000000000000, 0.000000000000000000, 1.000000000000000000 ) ) ;
#182 = VERTEX_POINT ( 'NONE', #225 ) ;
#183 = DIRECTION ( 'NONE',  ( -1.000000000000000000, -0.000000000000000000, -0.000000000000000000 ) ) ;
#184 = CARTESIAN_POINT ( 'NONE',  ( 2.999999999999999556, 12.69999999999999929, 0.000000000000000000 ) ) ;
#185 = CIRCLE ( 'NONE', #9, 9.000000000000000000 ) ;
#186 = PERSON_AND_ORGANIZATION ( #12, #274 ) ;
#187 = PLANE ( 'NONE',  #267 ) ;
#188 = ORIENTED_EDGE ( 'NONE', *, *, #153, .T. ) ;
#189 = DATE_AND_TIME ( #33, #35 ) ;
#190 = LINE ( 'NONE', #246, #152 ) ;
#191 = CALENDAR_DATE ( 2020, 22, 12 ) ;
#192 = FACE_OUTER_BOUND ( 'NONE', #312, .T. ) ;
#193 = AXIS2_PLACEMENT_3D ( 'NONE', #119, #91, #198 ) ;
#194 = ADVANCED_FACE ( 'NONE', ( #148 ), #301, .F. ) ;
#195 = CYLINDRICAL_SURFACE ( 'NONE', #277, 9.000000000000000000 ) ;
#196 = CIRCLE ( 'NONE', #19, 9.000000000000000000 ) ;
#197 = EDGE_LOOP ( 'NONE', ( #188, #53, #263, #209 ) ) ;
#198 = DIRECTION ( 'NONE',  ( 0.000000000000000000, 0.000000000000000000, 1.000000000000000000 ) ) ;
#199 = ADVANCED_BREP_SHAPE_REPRESENTATION ( 'Q-SHPQWP-18-1030-M', ( #175, #261 ), #328 ) ;
#200 = CALENDAR_DATE ( 2020, 22, 12 ) ;
#201 = SHAPE_DEFINITION_REPRESENTATION ( #125, #199 ) ;
#202 = CIRCLE ( 'NONE', #89, 9.000000000000000000 ) ;
#203 = EDGE_LOOP ( 'NONE', ( #232, #264, #10, #256 ) ) ;
#204 = CARTESIAN_POINT ( 'NONE',  ( 0.01450000000000105718, 0.000000000000000000, 0.000000000000000000 ) ) ;
#205 = ORIENTED_EDGE ( 'NONE', *, *, #43, .F. ) ;
#206 = FACE_BOUND ( 'NONE', #334, .T. ) ;
#207 = ADVANCED_FACE ( 'NONE', ( #171 ), #195, .F. ) ;
#208 = VECTOR ( 'NONE', #134, 1000.000000000000000 ) ;
#209 = ORIENTED_EDGE ( 'NONE', *, *, #133, .F. ) ;
#210 = CIRCLE ( 'NONE', #87, 9.000000000000000000 ) ;
#211 = ORIENTED_EDGE ( 'NONE', *, *, #26, .T. ) ;
#212 = CARTESIAN_POINT ( 'NONE',  ( -1.614212418857619014, 0.000000000000000000, 9.000000000000000000 ) ) ;
#213 = EDGE_CURVE ( 'NONE', #2, #104, #147, .T. ) ;
#214 = DIRECTION ( 'NONE',  ( -1.000000000000000000, -0.000000000000000000, -0.000000000000000000 ) ) ;
#215 = CALENDAR_DATE ( 2020, 22, 12 ) ;
#216 = DIRECTION ( 'NONE',  ( -1.000000000000000000, -0.000000000000000000, -0.000000000000000000 ) ) ;
#217 = CC_DESIGN_PERSON_AND_ORGANIZATION_ASSIGNMENT ( #324, #221, ( #238 ) ) ;
#218 = APPROVAL_STATUS ( 'not_yet_approved' ) ;
#219 = DIRECTION ( 'NONE',  ( 0.000000000000000000, 0.000000000000000000, 1.000000000000000000 ) ) ;
#220 = CARTESIAN_POINT ( 'NONE',  ( 2.999999999999999112, 1.102182119232617714E-15, -9.000000000000000000 ) ) ;
#221 = PERSON_AND_ORGANIZATION_ROLE ( 'creator' ) ;
#222 = ADVANCED_FACE ( 'NONE', ( #300 ), #17, .T. ) ;
#223 = MECHANICAL_CONTEXT ( 'NONE', #60, 'mechanical' ) ;
#224 = VECTOR ( 'NONE', #249, 1000.000000000000000 ) ;
#225 = CARTESIAN_POINT ( 'NONE',  ( -3.000000000000000000, 1.555301434917138433E-15, -12.69999999999999929 ) ) ;
#226 = DIRECTION ( 'NONE',  ( 1.000000000000000000, 0.000000000000000000, 0.000000000000000000 ) ) ;
#227 = AXIS2_PLACEMENT_3D ( 'NONE', #294, #163, #219 ) ;
#228 = LOCAL_TIME ( 17, 47, 10.00000000000000000, #82 ) ;
#229 = ORIENTED_EDGE ( 'NONE', *, *, #296, .T. ) ;
#230 = EDGE_CURVE ( 'NONE', #165, #235, #30, .T. ) ;
#231 = AXIS2_PLACEMENT_3D ( 'NONE', #237, #183, #309 ) ;
#232 = ORIENTED_EDGE ( 'NONE', *, *, #169, .F. ) ;
#233 = APPROVAL ( #92, 'UNSPECIFIED' ) ;
#234 = DIRECTION ( 'NONE',  ( 0.000000000000000000, 0.000000000000000000, 1.000000000000000000 ) ) ;
#235 = VERTEX_POINT ( 'NONE', #278 ) ;
#236 = ORIENTED_EDGE ( 'NONE', *, *, #5, .T. ) ;
#237 = CARTESIAN_POINT ( 'NONE',  ( 3.000000000000000000, 0.000000000000000000, 0.000000000000000000 ) ) ;
#238 = PRODUCT_DEFINITION_FORMATION_WITH_SPECIFIED_SOURCE ( 'ANY', '', #177, .NOT_KNOWN. ) ;
#239 = ORIENTED_EDGE ( 'NONE', *, *, #5, .F. ) ;
#240 = CYLINDRICAL_SURFACE ( 'NONE', #142, 9.000000000000000000 ) ;
#241 = DIRECTION ( 'NONE',  ( 1.000000000000000000, 0.000000000000000000, 0.000000000000000000 ) ) ;
#242 = UNCERTAINTY_MEASURE_WITH_UNIT (LENGTH_MEASURE( 1.000000000000000082E-05 ), #29, 'distance_accuracy_value', 'NONE');
#243 = CARTESIAN_POINT ( 'NONE',  ( 0.01450000000000051595, 9.000000000000000000, 0.000000000000000000 ) ) ;
#244 = DIRECTION ( 'NONE',  ( 0.000000000000000000, 0.000000000000000000, 1.000000000000000000 ) ) ;
#245 = APPROVAL_DATE_TIME ( #65, #120 ) ;
#246 = CARTESIAN_POINT ( 'NONE',  ( -1.614212418857619014, 0.000000000000000000, 12.69999999999999929 ) ) ;
#247 = LOCAL_TIME ( 17, 47, 10.00000000000000000, #248 ) ;
#248 = COORDINATED_UNIVERSAL_TIME_OFFSET ( 8, 0, .AHEAD. ) ;
#249 = DIRECTION ( 'NONE',  ( -1.000000000000000000, -0.000000000000000000, -0.000000000000000000 ) ) ;
#250 = EDGE_LOOP ( 'NONE', ( #23, #229, #282, #74 ) ) ;
#251 = EDGE_CURVE ( 'NONE', #57, #266, #54, .T. ) ;
#252 = CARTESIAN_POINT ( 'NONE',  ( -3.000000000000000000, 0.000000000000000000, 0.000000000000000000 ) ) ;
#253 = CLOSED_SHELL ( 'NONE', ( #222, #50, #287, #122, #7, #207, #59, #39, #255, #194 ) ) ;
#254 = AXIS2_PLACEMENT_3D ( 'NONE', #329, #45, #257 ) ;
#255 = ADVANCED_FACE ( 'NONE', ( #132, #206 ), #24, .F. ) ;
#256 = ORIENTED_EDGE ( 'NONE', *, *, #44, .F. ) ;
#257 = DIRECTION ( 'NONE',  ( 0.000000000000000000, 0.000000000000000000, 1.000000000000000000 ) ) ;
#258 = EDGE_CURVE ( 'NONE', #176, #104, #185, .T. ) ;
#259 = EDGE_LOOP ( 'NONE', ( #156, #311 ) ) ;
#260 = EDGE_CURVE ( 'NONE', #235, #165, #196, .T. ) ;
#261 = AXIS2_PLACEMENT_3D ( 'NONE', #265, #141, #241 ) ;
#262 = ORIENTED_EDGE ( 'NONE', *, *, #260, .T. ) ;
#263 = ORIENTED_EDGE ( 'NONE', *, *, #178, .F. ) ;
#264 = ORIENTED_EDGE ( 'NONE', *, *, #213, .T. ) ;
#265 = CARTESIAN_POINT ( 'NONE',  ( 0.000000000000000000, 0.000000000000000000, 0.000000000000000000 ) ) ;
#266 = VERTEX_POINT ( 'NONE', #27 ) ;
#267 = AXIS2_PLACEMENT_3D ( 'NONE', #243, #83, #137 ) ;
#268 = CC_DESIGN_APPROVAL ( #233, ( #323 ) ) ;
#269 = APPLICATION_PROTOCOL_DEFINITION ( 'international standard', 'config_control_design', 1994, #333 ) ;
#270 = PERSON_AND_ORGANIZATION ( #12, #274 ) ;
#271 = DIRECTION ( 'NONE',  ( -1.000000000000000000, -0.000000000000000000, -0.000000000000000000 ) ) ;
#272 = APPROVAL ( #85, 'UNSPECIFIED' ) ;
#273 = VECTOR ( 'NONE', #109, 1000.000000000000000 ) ;
#274 = ORGANIZATION ( 'UNSPECIFIED', 'UNSPECIFIED', '' ) ;
#275 = CARTESIAN_POINT ( 'NONE',  ( -1.614212418857619014, 1.102182119232617714E-15, -9.000000000000000000 ) ) ;
#276 = CARTESIAN_POINT ( 'NONE',  ( -1.614212418857619014, 1.102182119232617714E-15, -9.000000000000000000 ) ) ;
#277 = AXIS2_PLACEMENT_3D ( 'NONE', #170, #21, #93 ) ;
#278 = CARTESIAN_POINT ( 'NONE',  ( -0.01450000000000062350, 1.102182119232617714E-15, -9.000000000000000000 ) ) ;
#279 = EDGE_LOOP ( 'NONE', ( #239, #262, #211, #123 ) ) ;
#280 = DIRECTION ( 'NONE',  ( -1.000000000000000000, -0.000000000000000000, -0.000000000000000000 ) ) ;
#281 = DIRECTION ( 'NONE',  ( -0.000000000000000000, 0.000000000000000000, 1.000000000000000000 ) ) ;
#282 = ORIENTED_EDGE ( 'NONE', *, *, #133, .T. ) ;
#283 = DIRECTION ( 'NONE',  ( -1.000000000000000000, -0.000000000000000000, -0.000000000000000000 ) ) ;
#284 = DIRECTION ( 'NONE',  ( 0.000000000000000000, 0.000000000000000000, 1.000000000000000000 ) ) ;
#285 =( NAMED_UNIT ( * ) SI_UNIT ( $, .STERADIAN. ) SOLID_ANGLE_UNIT ( ) );
#286 = CARTESIAN_POINT ( 'NONE',  ( 0.01450000000000105718, 0.000000000000000000, 0.000000000000000000 ) ) ;
#287 = ADVANCED_FACE ( 'NONE', ( #99 ), #76, .F. ) ;
#288 = LINE ( 'NONE', #275, #310 ) ;
#289 = SECURITY_CLASSIFICATION_LEVEL ( 'unclassified' ) ;
#290 = DIRECTION ( 'NONE',  ( -1.000000000000000000, -0.000000000000000000, -0.000000000000000000 ) ) ;
#291 = PRODUCT_DEFINITION ( 'UNKNOWN', '', #238, #179 ) ;
#292 = LINE ( 'NONE', #8, #208 ) ;
#293 = COORDINATED_UNIVERSAL_TIME_OFFSET ( 8, 0, .AHEAD. ) ;
#294 = CARTESIAN_POINT ( 'NONE',  ( -3.000000000000000000, 0.000000000000000000, 0.000000000000000000 ) ) ;
#295 = AXIS2_PLACEMENT_3D ( 'NONE', #61, #319, #32 ) ;
#296 = EDGE_CURVE ( 'NONE', #308, #96, #150, .T. ) ;
#297 = CIRCLE ( 'NONE', #149, 12.69999999999999929 ) ;
#298 = DIRECTION ( 'NONE',  ( -1.000000000000000000, -0.000000000000000000, -0.000000000000000000 ) ) ;
#299 = DATE_AND_TIME ( #215, #317 ) ;
#300 = FACE_OUTER_BOUND ( 'NONE', #197, .T. ) ;
#301 = PLANE ( 'NONE',  #168 ) ;
#302 = DIRECTION ( 'NONE',  ( 0.000000000000000000, 0.000000000000000000, 1.000000000000000000 ) ) ;
#303 = CC_DESIGN_PERSON_AND_ORGANIZATION_ASSIGNMENT ( #186, #110, ( #291 ) ) ;
#304 = EDGE_LOOP ( 'NONE', ( #56, #48 ) ) ;
#305 = CC_DESIGN_PERSON_AND_ORGANIZATION_ASSIGNMENT ( #67, #136, ( #177 ) ) ;
#306 = CARTESIAN_POINT ( 'NONE',  ( -0.01450000000000062350, 0.000000000000000000, 9.000000000000000000 ) ) ;
#307 = DIRECTION ( 'NONE',  ( -1.000000000000000000, -0.000000000000000000, -0.000000000000000000 ) ) ;
#308 = VERTEX_POINT ( 'NONE', #101 ) ;
#309 = DIRECTION ( 'NONE',  ( 0.000000000000000000, 0.000000000000000000, 1.000000000000000000 ) ) ;
#310 = VECTOR ( 'NONE', #298, 1000.000000000000000 ) ;
#311 = ORIENTED_EDGE ( 'NONE', *, *, #260, .F. ) ;
#312 = EDGE_LOOP ( 'NONE', ( #51, #236, #158, #1 ) ) ;
#313 = CARTESIAN_POINT ( 'NONE',  ( -1.614212418857619014, 0.000000000000000000, 0.000000000000000000 ) ) ;
#314 = CARTESIAN_POINT ( 'NONE',  ( -1.614212418857619014, 0.000000000000000000, 0.000000000000000000 ) ) ;
#315 = APPLICATION_PROTOCOL_DEFINITION ( 'international standard', 'config_control_design', 1994, #60 ) ;
#316 = FACE_OUTER_BOUND ( 'NONE', #100, .T. ) ;
#317 = LOCAL_TIME ( 17, 47, 10.00000000000000000, #14 ) ;
#318 = EDGE_CURVE ( 'NONE', #104, #176, #202, .T. ) ;
#319 = DIRECTION ( 'NONE',  ( -1.000000000000000000, -0.000000000000000000, -0.000000000000000000 ) ) ;
#320 = PERSON_AND_ORGANIZATION ( #12, #274 ) ;
#321 = DIRECTION ( 'NONE',  ( 0.000000000000000000, 0.000000000000000000, 1.000000000000000000 ) ) ;
#322 = DIRECTION ( 'NONE',  ( 1.000000000000000000, 0.000000000000000000, 0.000000000000000000 ) ) ;
#323 = SECURITY_CLASSIFICATION ( '', '', #289 ) ;
#324 = PERSON_AND_ORGANIZATION ( #12, #274 ) ;
#325 = EDGE_CURVE ( 'NONE', #98, #2, #210, .T. ) ;
#326 = APPROVAL_ROLE ( '' ) ;
#327 = DIRECTION ( 'NONE',  ( -1.000000000000000000, -0.000000000000000000, -0.000000000000000000 ) ) ;
#328 =( GEOMETRIC_REPRESENTATION_CONTEXT ( 3 ) GLOBAL_UNCERTAINTY_ASSIGNED_CONTEXT ( ( #242 ) ) GLOBAL_UNIT_ASSIGNED_CONTEXT ( ( #29, #78, #285 ) ) REPRESENTATION_CONTEXT ( 'NONE', 'WORKASPACE' ) );
#329 = CARTESIAN_POINT ( 'NONE',  ( 2.999999999999999112, 0.000000000000000000, 0.000000000000000000 ) ) ;
#330 = CC_DESIGN_PERSON_AND_ORGANIZATION_ASSIGNMENT ( #320, #80, ( #323 ) ) ;
#331 = AXIS2_PLACEMENT_3D ( 'NONE', #117, #327, #302 ) ;
#332 = CC_DESIGN_APPROVAL ( #120, ( #238 ) ) ;
#333 = APPLICATION_CONTEXT ( 'configuration controlled 3d designs of mechanical parts and assemblies' ) ;
#334 = EDGE_LOOP ( 'NONE', ( #174, #146 ) ) ;
#335 = DIRECTION ( 'NONE',  ( 0.000000000000000000, 0.000000000000000000, -1.000000000000000000 ) ) ;
ENDSEC;
END-ISO-10303-21;
